陶丛TXT吉他谱《说走就走》吉他谱_六线谱

歌手:吉他吧 来源:未知 2020-03-20 曲谱热度:°

GG7
---------------------------------------------------------
---------------------------------------------------------
-------4-------------4-------------4--------------4------
-----5---5---------5---5---------3---3----------3---3----
---5-------5-----5-------5-----5-------5------5-------5--
--3-------------3-------------3--------------3-----------

G7G7 C
--------------------------------------------------------
--------------------------------------------------------
-------4--------------4------------4--------------------
-----3---3----------3---3--------3---3-----5-x--5-x-----
---5-------5------5-------5----5------5----3-x--3-x-----
-3--------------3-------------3-------------------------


CAPO 1 G KEY

G G7 G7 C D
就昨天 当我在你的房间 我发现有封信 藏在你枕头下面 
G G7 G7 C D
每一页 每个字都好甜 可是当我看到 收信的人 我才知道你心改变 
Em Bm C D
如果这爱已对你是一种包袱 你不必勉强你的心 
Em Bm C D 
因为我不愿看到你这样的痛苦 我心甘情愿给你自由 

G G7
说走就走 不要回头 不要让我看到你在流泪 
C Bm C D
不要挥手 不必点头 答应我你不为我流泪 
G G7
说走就走 绝不回头 绝不要怕我会把你拖累 
C Bm C D G
不要挥手 不必点头 不愿看到你为我流泪 不要流泪 REPEAT TAB


在今天 要写最後一页 结束这爱情 这是最後的一篇 
(再)看一眼 你纯真的容颜 我悄悄把信放在你床边 
这是我们最後一面 

C#
快忍不住(我受不了) 
C G7 C
我好想哭(眼泪流下来) 可是我坚强的对你祝福 
Bm C D
不要挥手 不必点头 答应我你不为我流泪 

CHANGE TO G#

说走就走 不要回头 不要让我看到你在流泪 
不要挥手 不必点头 答应我你不为我流泪 
说走就走 绝不回头 绝不要怕我会把你拖累 
不要挥手 不必点头 不愿看到你为我流泪我心破碎

吉他谱 六线谱 陶丛TXT吉他谱 说走就走

1.本站遵循行业规范,任何转载的曲谱和教程都会明确标注作者和来源;2.本站的原创曲谱,请转载时务必注明文章作者和来源,不尊重原创的行为我们将追究责任;3.作者投稿可能会经我们编辑修改或补充。

TXT谱 吉他谱 六线谱 陶丛TXT吉他谱 说走就走吉他谱
自动滚屏
关闭
自动滚屏