按歌手字母索引 0-9 A B C D E F G H  I J K L M N O P Q R S T U V W X Y Z
You Give Love A Bad Name
吉他吧 www.jitaba.cn 点击:
当前位置: 主页_吉他曲谱_W_
吉它谱歌曲名: You Give Love A Bad Name
歌手/乐队:Bon Jovi

  Intro

E |-------------------|-------------|-----------------|------------|---------|
B |-------------------|--6----6---4-|--6--4------3--5-|-6----6---4-|--6-4----|
G |-------------------|-------------|--------5--------|------------|-------5-|
D |-------------------|-------------|-----------------|------------|---------|
A |----------x--x---x-|-------------|-----------------|------------|---------|
E |-------------------|-------------|-----------------|------------|---------|


E |------------|----------------|--------|----|----//-------------------------|
B |-6---6----4-|--6--4----------|-6---6--|-6--|-6-----------------------------|
G |------------|--------5--3--5-|--------|----|-------------------------------|
D |------------|----------------|--------|----|--------------------1--1-------|
A |------------|----------------|--------|----|--------3-----1--3--------3--1-|
E |------------|----------------|--------|----|-----------3-------------------|
                                                       P.M. - - - - - - - - -

                            v v v v
E |-----------------------|---------|
B |-----------------------|-4-4-4-4-|
G |-----------------------|-3-3-3-3-|
D |--------------1--1-----|---------|
A |-3-----1--3---------3--|---------|
E |----3------------------|---------|
    - - - - - -|

  Verse

E |-------------------------|---------------------|
B |-------------------------|---------------------|
G |-------------------------|---------------------|
D |--------------1--1-------|-------------1--1----|   repeat 4 times
A |--3-----1--3--------3--1-|-3-----1--3--------3-|
E |-----3-------------------|----3----------------|
     P.M. - - - - - - - - - - - - - - - - - - - -|


  Pre-chorus
                                         v v v v
E |-----|-------|---------------------|-----------|-----|-------------|
B |-----|-------|-----------4-----4---|--4-4-4-4--|-----|----------3--|
G |-----|-------|-----x--x--3--x--3---|--3-3-3-3--|--3--|-3-----3-----|
D |--3--|--3-\--|---------------------|-----------|--3--|-3--3--------|
A |--3--|--3-\--|---------------------|-----------|--1--|-1-----------|
E |--1--|--1-\--|---------------------|-----------|-----|-------------|



E |-------------------|---------------|
B |-------------------|---------------|
G |-----------2-5-----|-----------4---|
D |--------3----------|--------5------|
A |-----3-------------|-----5---------|
E |--1----------------|--3------------|


  Chorus

E |-------------------|-------------|------------|--------|
B |-------------------|-------------|------------|--------|
G |-------------------|-------------|------------|--------|     x 2
D |--5----------------|-------------|------------|--8--5--|
A |--3-----6---8--10--|--8--8---10--|--6-----8---|--6--3--|
E |--------4---6---8--|--6--6----8--|--4-----6---|--------|



  1st ending

E |------------|-----|-----|--------------------------|-----------------------|
B |------------|-----|-----|--------------------------|-----------------------|
G |------------|-----|-----|--------------------------|-----------------------|
D |------------|-----|-----|--------------1--1--------|--------------1--1-----|
A |--6-----8---|--8--|-----|--3-----1--3--------3--1--|--3-----1--3--------3--|
E |--4-----6---|--6--|-----|-----3--------------------|-----3-----------------|
                              P.M. - - - - - - - - - - - - - - - - |

                                        v   v
E |--------------------------|----------------|
B |--------------------------|--4-----4---4---|
G |--------------------------|--3--b--3---3---|
D |--------------1--1--------|----------------|
A |--3-----1--3---------3--1-|----------------|
E |-----3--------------------|----------------|
     P.M. - - - - - - - - - |


   2nd ending           Guitarsolo

E |------------|------//-----|-----|--------------|---------------------|
B |------------|-------------|-----|--------4--4--|--1h3--3h4--4h6--6h8-|
G |------------|----------5--|--5--|--5--5--------|---------------------|
D |------------|-------------|-----|--------------|---------------------|
A |--6-----8---|--8----------|-----|--------------|---------------------|
E |--4-----6---|--6----------|-----|--------------|---------------------|


                           v v v v v        v
E |-------------------|---------------|-------------|--8-----11--11-\--|
B |--8h11--11h13--13--|--11-----------|--11-----11--|-11-----14--14-\--|
G |-------------------|---------------|-------------|------------------|
D |-------------------|---------------|-------------|------------------|
A |-------------------|---------------|-------------|------------------|
E |-------------------|---------------|-------------|------------------|


E |-------------------------------------------------|-----|
B |-------------------------------------------------|-----|
G |-------------------------------------------------|-----|
D |-----------------1-----------------------1--3p1--|--5\-|
A |--3--1-----1--3-----3--1--3--1-----1--3----------|-----|
E |--------3-----------------------3----------------|-----|



  Outro

E |------------|---------|
B |------------|---------|
G |------------|---------|
D |------------|--8--5---|   x 8  (fade out)
A |--6---8--8--|--6--3---|
E |--4---6--6--|---------|




How to play:

1. Intro
2. Verse
3. Pre-chorus
4. Chorus
5. 1st ending
6. Verse
7. Pre-chorus
8. Chorus
9. 2nd ending
10. 8 beats break
11. Chorus
12. Outro


Lyrics:

Verse 1

An angel’s smile is what you sell
You promise me heaven then put me through hell
Chains of love got a hold on me
When passions a prison you can’t break free


Pre-chorus

Oh, You’re a loaded gun
Oh, There’s noway to run
No one can save me
The damage is done


Chorus

Shot thru the heart
And you’re to blame
You give love a bad name
I play my part and you play your game
You give love a bad name
You give love a bad name


2 Verse

You paint your smile on your lips
Blood red nails on your fingertips
A schoolboy’s dream, you act so shy
Your very first kiss was your first kiss goodbye


Pre-chorus

Chorus

Chorus

Chorus

Outro

oh oh oh oh
oh oh oh oh Bad Name
oh oh oh oh
oh oh oh oh Bad Name
(fade out)

GTP格式
:请确保您的机器安装了Guitar pro 5.0版,以及解压软件WinRAR。
上一篇:You Had Me From Hello     下一篇:眼红馆(F调)