按歌手字母索引 0-9 A B C D E F G H  I J K L M N O P Q R S T U V W X Y Z
1969
吉他吧 www.jitaba.cn 点击:
当前位置: 主页_吉他曲谱_T_
吉他曲谱 1969  歌手/乐队:the vines
曲调:E
Intro:

  E        G
E-------0--3-3-3-3-3-3-
B-------0--0-0-0-0-0-0-
G-------1--0-0-0-0-0-0-
D-0h2---2--0-0-0-0-0-0-
A-0h2------x-x-x-x-x-x-
e-----0----3-3-3-3-3-3- x3
           d u d u d u

E---------------------------
B---------------------------
G---------------------------
D-0h2---0h2---0h2-0h2-0h2---
A-0h2---0h2---0h2-0h2-0h2---
e-----0-----0-------------0-
          

Verse 1:

     A          G
Its 1969 in my head,
A                     C
I just wanna have no place to go,
A                           G
Livin thru the sound of the dead,
A                        C
Im gonna get stoned look round at my soul

  E        G
E-------0--3-3-3-3-3-3-
B-------0--0-0-0-0-0-0-
G-------1--0-0-0-0-0-0-
D-0h2---2--0-0-0-0-0-0-
A-0h2------x-x-x-x-x-x-
e-----0----3-3-3-3-3-3- x3
           d u d u d u

E---------------------------
B---------------------------
G---------------------------
D-0h2---0h2---0h2-0h2-0h2---
A-0h2---0h2---0h2-0h2-0h2---
e-----0-----0-------------0-
          

Verse 2:

NOTE:In this verse these chords arent strummed but picked.
     The sequence is shown below
   
  A               C               G                E
E---------0--------------0-----------------3----------------0-------
B-----------2--------------1-----------------0----------------0-----
G-----2-------2--------0-----0---------0-------0--------2-------1---
D---2---2-------2----2---------2-----0---0-------0----2---2-------2-
A-0----------------3-------------3----------------------------------
e-----------------------------------3----------------0--------------
        
             A
Im hearin voices in the trees,
           C
And seein footsteps in the rain,
         G
I just wanna die before I lose my dole,
             A
I have been cryin in my sleep,
              C
Cause I dont know where Ive been,
        G                         E
I just wanna live to see another day


Interlude:

NOTE:During this part there is another picking sequence
     Again it is shown below

  A                      C                           
E---0-----0-----0-----------0-----0-----0-----0--------
B-----2-----2-----2-----------1-----1-----1-----1------
G-------2-----2-----2-----------0-----0-----0-----0----
D------------------------------------------------------
A-0--------------------0--3--------------------------3-
e------------------------------------------------------

  G                       E                           
E---3-----3-----3-----------0-----0-----0-----0--------
B-----0-----0-----0-----------0-----0-----0-----0------
G-------0-----0-----0-----------1-----1-----1-----1----
D------------------------------------------------------
A------------------------------------------------------
e-3---------------------3--0-------------------------0-


Yeah, yeah, yeah, yeah x8


Verse 3:

NOTE: The A chord played at the start of this verse is hit very hard
      and then stopped ringing with the palm of the right hand.


A                   G
When I get my Buick six,
A                      C
Ill see my life drop in that whirlpool,
A                    G
If I get to see you again,
A               C
Youre the only one I know


Solo:

  E        G
E-------0--3-3-3-3-3-3-
B-------0--0-0-0-0-0-0-
G-------1--0-0-0-0-0-0-
D-0h2---2--0-0-0-0-0-0-
A-0h2------x-x-x-x-x-x-
e-----0----3-3-3-3-3-3- x8
           d u d u d u

E-------------------------------------------------------------------
B-9~~--5~~--3~~--0~~--0-0-0-0-0-1b-0--------------------------------
G------------------------------------2-2-2-2-2-0-0---------2p0------
D--------------------------------------------------2-0h2p0-----2p0--
A-------------------------------------------------------------------
e------------------------------------------------------------------- x2


E------12b-----
B-12b------12b-
G--------------
D--------------
A--------------
e-------------- Then its hard to distinguish any guitar until
  3:14


E------
B-12b--
G------
D------
A------
e------ Ooooooooooooooooooooooooooooohhhhhhhhhhhh
3:27


E-0~----------
B-0~--9b--13b-
G-1~----------
D-2~----------
A-2~----------
e-0~----------
3:40


E-0---0-0-0-0-0-0-
B-0---0-0-0-0-0-0-
G-0--/1-1-1-1-1-1-
D-0--/2-2-2-2-2-2-
A-0--/2-2-2-2-2-2-
e-0---0-0-0-0-0-0- x4
3:52


E-------0--0-0-0-4-4-0-0-------0---0-0-0-0-0-0-
B-------0----------------------0---0-0-0-0-0-0-
G-------1----------------------1--/1-1-1-1-1-1-
D-0h2---2----------------0h2---2--/2-2-2-2-2-2-
A-0h2--------------------0h2------/2-2-2-2-2-2-
e-----0----------------------0-----0-0-0-0-0-0-


E-------0--0-0-0-4-4-0-0-------0-
B-------0----------------------0-
G-------1----------------------1-
D-0h2---2----------------0h2---2-
A-0h2--------------------0h2-----
e-----0----------------------0---


E-0---0-0-0-0-0-0-
B-0---0-0-0-0-0-0-
G-0--/1-1-1-1-1-1-
D-0--/2-2-2-2-2-2-
A-0--/2-2-2-2-2-2-
e-0---0-0-0-0-0-0- x4


E-------0--0-0-0-4-4-0-0-------0---0-0-0-0-0-0-
B-------0----------------------0---0-0-0-0-0-0-
G-------1----------------------1--/1-1-1-1-1-1-
D-0h2---2----------------0h2---2--/2-2-2-2-2-2-
A-0h2--------------------0h2------/2-2-2-2-2-2-
e-----0----------------------0-----0-0-0-0-0-0-
  Here we go___________  There I stand_________

E-------0--0-0-0-4-4-0-0-------0---0-0-0-0-0-0-
B-------0----------------------0---0-0-0-0-0-0-
G-------1----------------------1--/1-1-1-1-1-1-
D-0h2---2----------------0h2---2--/2-2-2-2-2-2-
A-0h2--------------------0h2------/2-2-2-2-2-2-
e-----0----------------------0-----0-0-0-0-0-0-
   Im a seed____________  Of a man_____________


Em
Dare I go, Dare I stare,
Im a seed, Of a man

E-0---0-0-0-0-0-0-
B-0---0-0-0-0-0-0-
G-0--/1-1-1-1-1-1-
D-0--/2-2-2-2-2-2-
A-0--/2-2-2-2-2-2-
e-0---0-0-0-0-0-0- x4


E-------0--0-0-0-4-4-0-0-------0---0-0-0-0-0-0-
B-------0----------------------0---0-0-0-0-0-0-
G-------1----------------------1--/1-1-1-1-1-1-
D-0h2---2----------------0h2---2--/2-2-2-2-2-2-
A-0h2--------------------0h2------/2-2-2-2-2-2-
e-----0----------------------0-----0-0-0-0-0-0-


E-------0--0-0-0-4-4-0-0-------0-
B-------0----------------------0-
G-------1----------------------1-
D-0h2---2----------------0h2---2-
A-0h2--------------------0h2-----
e-----0----------------------0---


E-0---0-0-0-0-0-0-
B-0---0-0-0-0-0-0-
G-0--/1-1-1-1-1-1-
D-0--/2-2-2-2-2-2-
A-0--/2-2-2-2-2-2-
e-0---0-0-0-0-0-0- x4

  C               G               A                E
E--------------------------------------------------------------------
B-----1-------1--------0-------0-------2-------2--------0------------
G-----0-------0--------0-------0-------2-------2--------1------0h1-0-
D---2---2---2---2----0---0---0---0-- 2---2---2---2----2---2--2-0h2-0-
A-3-------3------------------------0-------0-------------------------
e------------------3-------3------------------------0-------0--------

Play this 6 times with slight variations each time
曲调:E
Intro:

  E        G
E-------0--3-3-3-3-3-3-
B-------0--0-0-0-0-0-0-
G-------1--0-0-0-0-0-0-
D-0h2---2--0-0-0-0-0-0-
A-0h2------x-x-x-x-x-x-
e-----0----3-3-3-3-3-3- x3
           d u d u d u

E---------------------------
B---------------------------
G---------------------------
D-0h2---0h2---0h2-0h2-0h2---
A-0h2---0h2---0h2-0h2-0h2---
e-----0-----0-------------0-
          

Verse 1:

     A          G
Its 1969 in my head,
A                     C
I just wanna have no place to go,
A                           G
Livin thru the sound of the dead,
A                        C
Im gonna get stoned look round at my soul

  E        G
E-------0--3-3-3-3-3-3-
B-------0--0-0-0-0-0-0-
G-------1--0-0-0-0-0-0-
D-0h2---2--0-0-0-0-0-0-
A-0h2------x-x-x-x-x-x-
e-----0----3-3-3-3-3-3- x3
           d u d u d u

E---------------------------
B---------------------------
G---------------------------
D-0h2---0h2---0h2-0h2-0h2---
A-0h2---0h2---0h2-0h2-0h2---
e-----0-----0-------------0-
          

Verse 2:

NOTE:In this verse these chords arent strummed but picked.
     The sequence is shown below
   
  A               C               G                E
E---------0--------------0-----------------3----------------0-------
B-----------2--------------1-----------------0----------------0-----
G-----2-------2--------0-----0---------0-------0--------2-------1---
D---2---2-------2----2---------2-----0---0-------0----2---2-------2-
A-0----------------3-------------3----------------------------------
e-----------------------------------3----------------0--------------
        
             A
Im hearin voices in the trees,
           C
And seein footsteps in the rain,
         G
I just wanna die before I lose my dole,
             A
I have been cryin in my sleep,
              C
Cause I dont know where Ive been,
        G                         E
I just wanna live to see another day


Interlude:

NOTE:During this part there is another picking sequence
     Again it is shown below

  A                      C                           
E---0-----0-----0-----------0-----0-----0-----0--------
B-----2-----2-----2-----------1-----1-----1-----1------
G-------2-----2-----2-----------0-----0-----0-----0----
D------------------------------------------------------
A-0--------------------0--3--------------------------3-
e------------------------------------------------------

  G                       E                           
E---3-----3-----3-----------0-----0-----0-----0--------
B-----0-----0-----0-----------0-----0-----0-----0------
G-------0-----0-----0-----------1-----1-----1-----1----
D------------------------------------------------------
A------------------------------------------------------
e-3---------------------3--0-------------------------0-


Yeah, yeah, yeah, yeah x8


Verse 3:

NOTE: The A chord played at the start of this verse is hit very hard
      and then stopped ringing with the palm of the right hand.


A                   G
When I get my Buick six,
A                      C
Ill see my life drop in that whirlpool,
A                    G
If I get to see you again,
A               C
Youre the only one I know


Solo:

  E        G
E-------0--3-3-3-3-3-3-
B-------0--0-0-0-0-0-0-
G-------1--0-0-0-0-0-0-
D-0h2---2--0-0-0-0-0-0-
A-0h2------x-x-x-x-x-x-
e-----0----3-3-3-3-3-3- x8
           d u d u d u

E-------------------------------------------------------------------
B-9~~--5~~--3~~--0~~--0-0-0-0-0-1b-0--------------------------------
G------------------------------------2-2-2-2-2-0-0---------2p0------
D--------------------------------------------------2-0h2p0-----2p0--
A-------------------------------------------------------------------
e------------------------------------------------------------------- x2


E------12b-----
B-12b------12b-
G--------------
D--------------
A--------------
e-------------- Then its hard to distinguish any guitar until
  3:14


E------
B-12b--
G------
D------
A------
e------ Ooooooooooooooooooooooooooooohhhhhhhhhhhh
3:27


E-0~----------
B-0~--9b--13b-
G-1~----------
D-2~----------
A-2~----------
e-0~----------
3:40


E-0---0-0-0-0-0-0-
B-0---0-0-0-0-0-0-
G-0--/1-1-1-1-1-1-
D-0--/2-2-2-2-2-2-
A-0--/2-2-2-2-2-2-
e-0---0-0-0-0-0-0- x4
3:52


E-------0--0-0-0-4-4-0-0-------0---0-0-0-0-0-0-
B-------0----------------------0---0-0-0-0-0-0-
G-------1----------------------1--/1-1-1-1-1-1-
D-0h2---2----------------0h2---2--/2-2-2-2-2-2-
A-0h2--------------------0h2------/2-2-2-2-2-2-
e-----0----------------------0-----0-0-0-0-0-0-


E-------0--0-0-0-4-4-0-0-------0-
B-------0----------------------0-
G-------1----------------------1-
D-0h2---2----------------0h2---2-
A-0h2--------------------0h2-----
e-----0----------------------0---


E-0---0-0-0-0-0-0-
B-0---0-0-0-0-0-0-
G-0--/1-1-1-1-1-1-
D-0--/2-2-2-2-2-2-
A-0--/2-2-2-2-2-2-
e-0---0-0-0-0-0-0- x4


E-------0--0-0-0-4-4-0-0-------0---0-0-0-0-0-0-
B-------0----------------------0---0-0-0-0-0-0-
G-------1----------------------1--/1-1-1-1-1-1-
D-0h2---2----------------0h2---2--/2-2-2-2-2-2-
A-0h2--------------------0h2------/2-2-2-2-2-2-
e-----0----------------------0-----0-0-0-0-0-0-
  Here we go___________  There I stand_________

E-------0--0-0-0-4-4-0-0-------0---0-0-0-0-0-0-
B-------0----------------------0---0-0-0-0-0-0-
G-------1----------------------1--/1-1-1-1-1-1-
D-0h2---2----------------0h2---2--/2-2-2-2-2-2-
A-0h2--------------------0h2------/2-2-2-2-2-2-
e-----0----------------------0-----0-0-0-0-0-0-
   Im a seed____________  Of a man_____________


Em
Dare I go, Dare I stare,
Im a seed, Of a man

E-0---0-0-0-0-0-0-
B-0---0-0-0-0-0-0-
G-0--/1-1-1-1-1-1-
D-0--/2-2-2-2-2-2-
A-0--/2-2-2-2-2-2-
e-0---0-0-0-0-0-0- x4


E-------0--0-0-0-4-4-0-0-------0---0-0-0-0-0-0-
B-------0----------------------0---0-0-0-0-0-0-
G-------1----------------------1--/1-1-1-1-1-1-
D-0h2---2----------------0h2---2--/2-2-2-2-2-2-
A-0h2--------------------0h2------/2-2-2-2-2-2-
e-----0----------------------0-----0-0-0-0-0-0-


E-------0--0-0-0-4-4-0-0-------0-
B-------0----------------------0-
G-------1----------------------1-
D-0h2---2----------------0h2---2-
A-0h2--------------------0h2-----
e-----0----------------------0---


E-0---0-0-0-0-0-0-
B-0---0-0-0-0-0-0-
G-0--/1-1-1-1-1-1-
D-0--/2-2-2-2-2-2-
A-0--/2-2-2-2-2-2-
e-0---0-0-0-0-0-0- x4

  C               G               A                E
E--------------------------------------------------------------------
B-----1-------1--------0-------0-------2-------2--------0------------
G-----0-------0--------0-------0-------2-------2--------1------0h1-0-
D---2---2---2---2----0---0---0---0-- 2---2---2---2----2---2--2-0h2-0-
A-3-------3------------------------0-------0-------------------------
e------------------3-------3------------------------0-------0--------

Play this 6 times with slight variations each time

GTP格式
:请确保您的机器安装了Guitar pro 5.0版,以及解压软件WinRAR。
上一篇:米黄色衬衫     下一篇:Hey Jude
相关曲目