按歌手字母索引 0-9 A B C D E F G H  I J K L M N O P Q R S T U V W X Y Z
Just feel better (All that I am)
吉他吧 www.jitaba.cn 点击:
当前位置: 主页_吉他曲谱_S_
吉它曲谱:Just feel better (All that I am)  歌手/乐队:Santana


Artist: Carlos Santana
Song: Just Feel Better


Artist: Carlos Santana and Steven Tyler
Song: Just Feel Better
Album: All That I Am

Intro + solo
Tabbed by Kim Vu


Intro:

e----------------------------------------------------------------------------|
B---16--15--16--15-----------------------------------------------------------|
G--------------------15-----15p17--15~~~~~~----------------------------------|
D------------------------17--------------------------------------------------|
A----------------------------------------------------------------------------|
E----------------------------------------------------------------------------|



e-----------------------------------------------------------------------------|
B-----------------------------------------------------------------------------|
G-----------------------------------------------------------------------------|
D-----13--15---17--17--15--13--13--13p15--------------------------------------|
A--13-------------------------------------------------------------------------|
E-----------------------------------------------------------------------------|

The stairway/ascent to solo

e-----------------------------------------------------------------------------|
B--------------------17-17-19-19-20-20----------------------------------------|
G--17-17-18-18-20-20----------------------------------------------------------|
D-----------------------------------------------------------------------------|
A-----------------------------------------------------------------------------|
E-----------------------------------------------------------------------------|



Solo to ending=
e----------------------------------------------------------------------------|
B-----16--15--16--15----------------------------16-16-16p18-------16---------|
G--------------------15----15p17-15--17---15/17-------------17-17------------|
D-----------------------17---------------------------------------------------|
A----------------------------------------------------------------------------|
E----------------------------------------------------------------------------|

Can’t remember how many times Santana hammer so you have to hear the song and guess


e-------------------------------------15h18-15h18 15h18-15h18 15h18--20-20-20-|
B---------16-16-16---18s20-----16-18------------------------------------------|
G---15/17-------------------15------------------------------------------------|
D-----------------------------------------------------------------------------|
A-----------------------------------------------------------------------------|
E-----------------------------------------------------------------------------|

                               
e-18-15------------15--------------------------------------------------------|
B--------18-16-18-----------16-----------------------------------------------|
G------------------17-17------12-12-12-12------------------------------------|
D----------------------------------------------------------------------------|
A----------------------------------------------------------------------------|
E----------------------------------------------------------------------------|

            



Ending
Repeat 2X  ( 2nd Time Slighlty Slower)
e----------------------------------------------------------------------------|
B--16--15--16--15------------------------------------------------------------|
G------------------15----15p17-15--------------------------------------------|
D---------------------17-----------------------------------------------------|
A----------------------------------------------------------------------------|
E----------------------------------------------------------------------------|

GTP格式
:请确保您的机器安装了Guitar pro 5.0版,以及解压软件WinRAR。
上一篇:青春日记     下一篇:多久多少
相关曲目