按歌手字母索引 0-9 A B C D E F G H  I J K L M N O P Q R S T U V W X Y Z
Forever
吉他吧 www.jitaba.cn 点击:
当前位置: 主页_吉他曲谱_Q_
吉他曲谱:Forever  歌手/乐队:齐豫


~ = Vibrato
= Slide Down
p = Pull Off
h = Hammer On


Intro:

Eb||--------------------------------------------------------||
Bb||-----7---5----------------------------------------------||
Gb||-7-----------76-4---------------4-7-6---7p6-4---7p6-4~-||
Db||---------------------7p5-4---5h7---------------4--------||
Ab||--------------------------------------------------------||
Eb||--------------------------------------------------------||


     Bm            F#m           G           D
   I stand         alone in the  dark-       ness

Eb||-------2-------------2-----------------------2-----|
Bb||---------3-------------2-----------------------3---|
Gb||---4-------4-----2-------2-----4---4-------2-----2-|
Db||-----4-------------4-------------5---5---0---------|
Ab||-2-------------------------------------------------|
Eb||---------------2-------------3---------------------|

    Em            A       Bm            F#   
The winter of     my life came so       fast

Eb|---------------------------------------------|
Bb|---------------2-------------3-----------2---|
Gb|-----------------2-------4-----4-------3---3-|
Db|-5-4-5-42-2-------2-------4-----4-----------|
Ab|-----------------------2-------------4-------|
Eb|---------------------------------------------|

    Bm            F#m           G           D
    Memories      go back to    child-      hood

Eb|-------2-------------2-----------------------2-----|
Bb|---------3-------------2-----------------------3---|
Gb|---4-------4-----2-------2-----4---4-------2-----2-|
Db|-----4-------------4-------------5---5---0---------|
Ab|-2-------------------------------------------------|
Eb|---------------2-------------3---------------------|

    Em            A       Bm       
    To days I     still recall     
                                 
Eb|-----------------------------2-----------||
Bb|---------------2---------------3-2-------||
Gb|-----------------2-----4---4-------4---4-||
Db|-5-4-5-42-2-------2-----4-----------4---||
Ab|-----------------------------------------||
Eb|-----------------------------------------||


Bm     F#m     G   D
Oh how happy I was then
Em           A      Bm           F#
There was no sorrow there was no pain
Bm      F#m         G     D
Walking through the green fields
Em       A     Bm
Sunshine in my eyes


          G          A
I'm still there everywhere
        D    D/C#   Bm
I'm the dust in the wind
        G           A        (Bm)
I'm the star in the northern sky

         G        A
I never stayed anywhere
        D    D/C#   Bm
I'm the wind in the trees
          G        A     (Bm)
Would you wait for me forever ?

Eb||-------2-----------||
Bb||---------3-2-------||
Gb||-4---4-------4---4-||
Db||---4-----------4---||
Ab||-------------------||
Eb||-------------------||


Solo:

Eb||----------------------------------------------------|
Bb||-----7---5------------------------------------------|
Gb||-7-----------76-4-----------------6-----4h6-7---6~-|
Db||---------------------7p5-4---5p4-----7--------------|
Ab||---------------------------------7------------------|
Eb||----------------------------------------------------|

Eb|--------------------------------------------||
Bb|-----7---5----------------------------------||
Gb|-7-----------76-4-----------------6-----4~-||
Db|---------------------7p5-4---5p4-----7------||
Ab|---------------------------------7----------||
Eb|--------------------------------------------||


          Bm         Em
I'm still there everywhere
        A           D
I'm the dust in the wind
        G           A       (Bm)
I'm the star in the northern sky

        Bm        Em
I never stayed anywhere
        A           D
I'm the wind in the trees
          G        A    (Bm)
Would you wait for me forever ?
          G        A    (Bm)
Would you wait for me forever ?
         G        A    (Bm)
Will you wait for me forever ?

GTP格式
:请确保您的机器安装了Guitar pro 5.0版,以及解压软件WinRAR。
上一篇:北方的狼     下一篇:比爱更爱