Stand By Me

歌手:网络 来源:文本 2007-08-31 曲谱热度:°

歌曲名:Stand By Me
歌手/乐队:Oasis

Chords:
G 320033
B7sus4 x21200
C x32010
C2/B  x20010
D xx0232
Em 022000
A x02220
Am x02210
Fmaj7 xx3210
D7/F# 2x0210
Cadd9 x32033


Intro:
         G  B7sus4  C
e--------3------0-------0-
B--------3------0-------1-
G--------0------2-------0-
D--------0------1-------2-
A--------2------2-------3-
E-/12-3--3------x-------x-

Then

C2/B      D                      G    B7sus4       C2/B    D
e------------------------------------------------------------------------
B-----8---10b12-10b12-10-8h10-8-8--8-8-7-----8---8---------8---8---10b12-
G-7h9---9--------------------------------7h9---9---7-7-7h9---9---9-------
D------------------------------------------------------------------------
A------------------------------------------------------------------------
E------------------------------------------------------------------------


e-------------------
B-10b12-10-8h10-8-8-
G-------------------
D-------------------
A-------------------
E-------------------


Verse 1:

G B7sus4
Made a meal and threw it up on Sunday,
  C   C2/B    D
Ive got a lot of things to learn,
G B7sus4
Said I would and Ill be leaving one day,
  C C2/B      D
Before my heart starts to burn          e------------
B------------
G------------
D------------
A------------
  E-0/12-5-7-8-

Pre Chorus:

C D
So whats the matter with you,
     e---------------------------------------
     B---------------------------------------
     G---------------------------------------
     D-----5-------------------5-------------
     A-5/7---7-5---------0-5/7------------/5-
     E---------------------------------------

G       D   Em
Sing me something new,
e------------
B------------
G------------
D------------
A-/3------/2-
E------------

  A
Dont you know the cold and the wind and the rain dont know,
     C       D
They only seem to come and go away      e---------------
B---------------
G-2b3-2-0h2-0-0-
D---------------
A---------------
E---------------

Verse 2:

G B7sus4
Times are hard when things have got no meaning,
  C     C2/B     D
Ive found a key upon the floor,         e-----------------------------
B-----8---8-10b12-10-8h10-8-8-
G-7h9---9---------------------
D-----------------------------
A-----------------------------
E-----------------------------
G      B7sus4
Maybe you and I will not believe in,
    C       C2/B    D
The things we find behind the door      e------------
B------------
G------------
D------------
A------------
  E-0/12-5-7-8-

Pre Chorus:

C D
So whats the matter with you,
     e---------------------------------------
     B---------------------------------------
     G---------------------------------------
     D-----5-------------------5-------------
     A-5/7---7-5---------0-5/7------------/5-
     E---------------------------------------

G       D   Em
Sing me something new,
e------------
B------------
G------------
D------------
A-/3------/2-
E------------

  A
Dont you know the cold and the wind and the rain dont know,
     C       D
They only seem to come and go away  e---------------------------------------
    B-----8---8---8-10b12-8h10-10b12-8h10-8-
    G-7h9---9---9---------------------------
    D---------------------------------------
    A---------------------------------------
            E---------------------------------------

Chorus:

G    D           Am
Stand by me, nobody knows,
             e-----------------------
     B-10b12-10-8-10-10b12-8-
     G-----------------------
     D-----------------------
     A-----------------------
     E-----------------------
            
                  C Fmaj7 D7/F#
The way its gonna be,
G    D             Am
Stand by me,     nobody knows,
e-------------------------------------
B-----8---8---8-10b12-10-8-10-10b12-8-
G-7h9---9---9-------------------------
D-------------------------------------
A-------------------------------------
E-------------------------------------

                  C Fmaj7 D7/F#
The way its gonna be,
G    D             Am
Stand by me,     nobody knows,
e-------------------------------------
B-----8---8---8-10b12-10-8-10-10b12-8-
G-7h9---9---9-------------------------
D-------------------------------------
A-------------------------------------
E-------------------------------------

                  C Fmaj7 D7/F#
The way its gonna be,
G    D             Am
Stand by me,     nobody knows,
e------------------------------------------------------------
B-----8---8---8-10b12-10-8-10-10b12-8--10b12-10-8-10-10b12-8-
G-7h9---9---9------------------------------------------------
D------------------------------------------------------------
A------------------------------------------------------------
E------------------------------------------------------------

      C
Yeah nobody knows,
e-----------------------------------------------
B-10b12-10-8-10-10b12-8-8-8-8-8-7-7-------------
G-----------------------------------9-9-7-7-----
D-------------------------------------------5-5-
A-----------------------------------------------
E-----------------------------------------------

D    G
The way its gonna be


Verse 2:

G   B7sus4
If youre leaving will you take me with you,
   C     C2/B  D
Im tired of talking on my phone, e----------------------------
B-----------8-10b12-10p8---8-
G-0h2-7-7-9--------------9---
D----------------------------
A----------------------------
E----------------------------

G B7sus4
There is one thing I can never give you,
   C     C2/B         D
My heart will never be your home e------------
B------------
G------------
D------------
A------------
  E-0/12-5-7-8-

Pre Chorus:

C D
So whats the matter with you,
     e---------------------------------------
     B---------------------------------------
     G---------------------------------------
     D-----5-------------------5-------------
     A-5/7---7-5---------0-5/7------------/5-
     E---------------------------------------

G       D   Em
Sing me something new,
e------------
B------------
G------------
D------------
A-/3------/2-
E------------

  A
Dont you know the cold and the wind and the rain dont know,
     C       D
They only seem to come and go away  e---------------------------------------
    B-----8---8---8-10b12-8h10-10b12-8h10-8-
    G-7h9---9---9---------------------------
    D---------------------------------------
    A---------------------------------------
            E---------------------------------------


Chorus:

G    D           Am
Stand by me, nobody knows,
             e-----------------------
     B-10b12-10-8-10-10b12-8-
     G-----------------------
     D-----------------------
     A-----------------------
     E-----------------------
            
                  C Fmaj7 D7/F#
The way its gonna be,
G    D             Am
Stand by me,     nobody knows,
e-------------------------------------
B-----8---8---8-10b12-10-8-10-10b12-8-
G-7h9---9---9-------------------------
D-------------------------------------
A-------------------------------------
E-------------------------------------

                  C Fmaj7 D7/F#
The way its gonna be,
G    D             Am
Stand by me,     nobody knows,
e-------------------------------------
B-----8---8---8-10b12-10-8-10-10b12-8-
G-7h9---9---9-------------------------
D-------------------------------------
A-------------------------------------
E-------------------------------------

                  C Fmaj7 D7/F#
The way its gonna be,
G    D             Am
Stand by me,     nobody knows,
e------------------------------------------------------------
B-----8---8---8-10b12-10-8-10-10b12-8--10b12-10-8-10-10b12-8-
G-7h9---9---9------------------------------------------------
D------------------------------------------------------------
A------------------------------------------------------------
E------------------------------------------------------------

      C
Yeah nobody knows,
e-----------------------------------------------
B-10b12-10-8-10-10b12-8-8-8-8-8-7-7-------------
G-----------------------------------9-9-7-7-----
D-------------------------------------------5-5-
A-----------------------------------------------
E-----------------------------------------------

D    G      Em      D   Cadd9
The way its gonna be, e-----------------
B-7b9-7-----------
G-------9-7-9-7-7-
D-----------------
A-----------------
E-----------------

Cadd9              Em        D           Cadd9
The way its gonna be yeah, e-----------------------------------------------
   B-7-7b9-7-------10-7-8-10b12-10-8-10-10b12-10-8-
           G---------9-7-9---------------------------------
   D-----------------------------------------------
   A-----------------------------------------------
   E-----------------------------------------------

Cadd9     Em            D7/F#     Cadd9
Maybe I can see yeah,   e-----------------------
B-7b9-7-----------------
G-------9-7-9-7-9-12-12-
D-----------------------
A-----------------------
E-----------------------

Cadd9   A
Dont you know the cold and the wind and the rain dont know,
     C       D
They only seem to come and go away  e-------------------------------------
    B-8-7-7-------------------------------
    G-------9-9-7-7-5-5-4-4-2-2-0-2-0-2b4-
    D-------------------------------------
    A-------------------------------------
            E-------------------------------------


G    D           Am
Stand by me, nobody knows,
             e-----------------------
     B-10b12-10-8-10-10b12-8-
     G-----------------------
     D-----------------------
     A-----------------------
     E-----------------------
            
                  C  Fmaj7 D7/F#
The way its gonna be, e-----------------------------
B-10b12-8---8-10b12-8---8---8-
G---------9-----------9---9---
D-----------------------------
A-----------------------------
E-----------------------------

G    D             Am
Stand by me,     nobody knows,
e-------------------------------------
B-----8---8---8-10b12-10-8-10-10b12-8-
G-7h9---9---9-------------------------
D-------------------------------------
A-------------------------------------
E-------------------------------------

                  C  Fmaj7 D7/F#
The way its gonna be, e-----------------------------
B-10b12-8---8-10b12-8---8---8-
G---------9-----------9---9---
D-----------------------------
A-----------------------------
E-----------------------------
G    D             Am
Stand by me,     nobody knows,
e-------------------------------------
B-----8---8---8-10b12-10-8-10-10b12-8-
G-7h9---9---9-------------------------
D-------------------------------------
A-------------------------------------
E-------------------------------------

                  C  Fmaj7 D7/F#
The way its gonna be, e-----------------------------
B-10b12-8---8-10b12-8---8---8-
G---------9-----------9---9---
D-----------------------------
A-----------------------------
E-----------------------------
G    D             Am
Stand by me,     nobody knows,
                e-----------------------
        B-10b12-10-8-10-10b12-8-
        G-----------------------
        D-----------------------
        A-----------------------
        E-----------------------

                C
Yeah God only knows,
e-----------------------
B-10b12-10-8-10-10b12-8-
G-----------------------
D-----------------------
A-----------------------
E-----------------------


D    G
The way its gonna be
e-----------------------------------------
B-10b12-8-8-7-7---------------------------
G---------------9-9-7-7-5-5-4-4-2-2-0-2b4-
D-----------------------------------------
A-----------------------------------------
E-----------------------------------------

1.本站遵循行业规范,任何转载的曲谱和教程都会明确标注作者和来源;2.本站的原创曲谱,请转载时务必注明文章作者和来源,不尊重原创的行为我们将追究责任;3.作者投稿可能会经我们编辑修改或补充。

自动滚屏
全屏阅谱
关闭
自动滚屏