About A Girl

吉它谱子 About A Girl  演唱: Nirvana
Album: Bleach (1989)
Tabulao por Crisman
Afinacion: Eb Ab Db Gb Bb eb (tambien se puede tocar cn la afinacion estandar "E A D G B e"
k es lo k hace Kurt en la malloria de directos. pero si kereis k suene igual k en el Bleach
se tiene k bajar medio tono a todas las cuerdas)

Em G      Em   G
I need an easy friend
Em       G      Em      G
I do... with an ear to lend
Em       G         Em       G
I do... think you’ll fit this shoe
Em       G        Em     G
I do... won’t you have a clue?

C#        G#        F#
I’ll take advantage while
C#          G#     F#
You hang me out to dry
Em           G       D    C   
But I can’t see you every night
Em  G  Em  G
free!

Em  G  Em  G
I do...
Em   G        Em      G
I’m standing in your line
Em      G         Em      G
I do... hope you have the time
Em      G       Em    G
I do... pick a number to
Em       G      Em       G
I do... keep a date with you


C#        G#        F#
I’ll take advantage while
C#          G#     F#
You hang me out to dry
Em           G       D    C   
But I can’t see you every night
Em  G  Em  G
free!


Solo:
eb|---------------------------------------|
Bb|---------------------------------------|
Gb|--------------7-7---9--9-9/12-12-------|
Db|---------5-7--7-7---9--9-9/12-12-------|
Ab|-----5-7-------------------------------|
Eb|--0------------------------------------|

C# G# F# C# G# F# Em G D C Em G Em G Em G Em G
                                          I Do...

Em G      Em   G
I need an easy friend
Em       G      Em      G
I do... with an ear to lend
Em       G         Em       G
I do... think you’ll fit this shoe
Em       G        Em     G
I do... won’t you have a clue?

C#        G#        F#
I’ll take advantage while
C#          G#     F#
You hang me out to dry
Em           G       D    C   
But I can’t see you every night
Em  G  Em  G
free!
Em G Em G
I do...
Em G Em G
I do...
Em G Em G
I do...
Em G Em G Em...
        I do...


    Em    G    C#    G#    F#    D    C 
eb|-0-----3----------------------2-----------|
Bb|-0-----0----------------------3-----------|
Gb|-0-----0----6-----------------2----5------|
Db|-2-----0----6-----6------4----0----5------|
Ab|-2-----2----4-----6------4---------3------|
Eb|-0-----3----------4------2----------------|

1.本站遵循行业规范,任何转载的曲谱和教程都会明确标注作者和来源;2.本站的原创曲谱,请转载时务必注明文章作者和来源;3.作者投稿可能会经我们编辑修改或补充。