按歌手字母索引 0-9 A B C D E F G H  I J K L M N O P Q R S T U V W X Y Z
Metallica
吉他吧 www.jitaba.cn 点击:
当前位置: 主页_吉他曲谱_M_
吉它曲谱 Metallica  歌手/乐队:The Unforgiven

1)
e---------------------------
B--0-0-----0-----0-----1----
G------2-----2-----2-----2--  Repeat
D--------2-----2-----2-----2
A--0------------------------
E---------------------------
accoustic intro

2)
e------------------------
B------------------------
G--2-4-5--5-4-2--2-4-5--2
D------------------------
A------------------------
E------------------------
still clean intro

3)
e-----------------------------------------------------------
B--------------------------------------5-5-5-3--------------
G--2-4-5--5--5-5-4---4----2-4-2--2-4-5---------4-4-0-1/2-4-2
D--0---------------5---2--2------2--------------------------
A-----------------------------------------------------------
E-----------------------------------------------------------
chorus/intro

4a) Kirk
G----------------------12-12-11-11------
D--12-12-10-9-12p9-----0--0--0--0--10-10 twice
A--0--0--0--0-0--0-10--------------0--0-
E------------------0--------------------
pm......................................

4b) James
G-------------------2-2-2-2----
D--2-2-2-5----------0-0-0-0-2-2
A--0-0-0-3-2-2--------------0-0
E----------0-0--0-0------------
crunch verse

5)
G-------------------------------------------- twice --
D--10p0-----9p0-----7p0-----5p0-----5-------5 then  -2
A-------0-0-----0-0-----0-0-----0-0-3-3h5p3-5       -2
E-------------------------------------------3       -0
        pm..     ...     ...     ...
"falling" riff                         full

6)                                     ^  ^
G-------------------2-2-2-2----       -----
D--2-2-2-5----------0-0-0-0-2-2 twice -4--4 play twice then to
A--0-0-0-3-2-2--------------0-0 then  ----- falling riff
E----------0-0--0-0------------       -----
                pm..
solo riff

7)
e--0--0--0-0--0-0-0-0--3-3-3-3--0-0-0-0
B--1--1--1-1--1-1-1-1--3-3-3-3--0-0-0-0
G--2--2--2-2--0-0-0-0--0-0-0-0--1-1-1-1
D--2--2--2-2--2-2-2-2--0-0-0-0--2-2-2-2
A--0--0--0-0--3-3-3-3--2-2-2-2--2-2-2-2
E----------------------3-3-3-3--0-0-0-0
accoustic closing
______________________________________________________________________

pre-solo (clean):

e-------------------------0-0-0-0-0-0-0-------------------------
B-------------------------0-1/3/5\3\1/3--8/10\8-7--5-3-----3----
G----4-5-7-4h5p4---4---------------------7/9-\7-7------5-4---4--
D--7-------------5---5-7---------------------------------------5
A---------------------------------------------------------------
E---------------------------------------------------------------

e---------------------
B---------------------
G----------------5----
D--------------5---5-7
A------3-5/6/7--------
E--3-5----------------

e-------------------------7-----10------12-------14-------15----17
B--8-8p7---7-8---7-8-10-8---8-8----8/10----10/12----12/14----14---
G--------9-----9--------------------------------------------------
D-----------------------------------------------------------------
A-----------------------------------------------------------------
E-----------------------------------------------------------------

Solo (distorted)
    ^  ^      ^
e-----------------------------------
B--7--7-----------------------------
G--7--7-5---------------------------
D---------7~7-5--------------------
A----------------7-5-3-5-3-------0-3
E--------------------------5-3-0----
                     pm..............

                                    AH       AH        AH
e----------------------------------10--------8--------10---
B-------------------7---7-8-7-8-10----10--10---10--10----10
G-----5-7-5-7/9-7-9---9------------------------------------
D--/7------------------------------------------------------
A----------------------------------------------------------
E----------------------------------------------------------

    ^   ^   ^    ^  ^                     ^
e---------------20-20--20-17-20p17----17---
B--20-20--20-17--------------------20----20
G------------------------------------------
D------------------------------------------
A------------------------------------------
E------------------------------------------

e--7-9-10-9----9-----------------------------12------- (7 times)
B-----------10---8-7-5-7-5-3-1-3-1-0------13----13----
G------------------------------------2/14----------14-
D-----------------------------------------------------
A-----------------------------------------------------
E-----------------------------------------------------

    ^  ^    ^     ^  ^
e-----------------------17-19-20-19-17-19-17----17---------
B---------------20--20-----------------------20----20-17---
G--19-19--19-17------------------------------------------19
D----------------------------------------------------------
A----------------------------------------------------------
E----------------------------------------------------------

e------------------------------------
B------------20---17h18p17~~17h18p17
G--19--19-17-------------------------
D------------------------------------
A------------------------------------
E------------------------------------

GTP格式
:请确保您的机器安装了Guitar pro 5.0版,以及解压软件WinRAR。
上一篇:Ultraviolet     下一篇:Nothing else matters
相关曲目