I'm yours 吉他谱 Jason Mraz

I'm yours吉他谱
Jason Mraz歌曲吉他弹唱谱子
吉他和弦编配来源:网络

LEAD
e|------------------|------------------|------------------|------------------|
B|----12/14--12-----|----12/14--7------|----7/9--4--------|----4x-4h5--------|
G|----11/13--11-----|----11/13--6------|----6/8--4--------|----4x-4----------|
D|------------------|------------------|------------------|------------------|
A|------------------|------------------|------------------|------------------|
E|------------------|------------------|------------------|------------------|
  RHYTHM - listen to the strumming pattern
e|------------------|------------------|------------------|------------------|
B|------------------|------------------|------------------|------------------|
G|-8-8-8-8-8-8-8-8--|-3-3-3-3-3-3-3-3--|-4-4-4-4-4-4-4-4--|-9-9-9-9-9-9-9-9--|
D|-9-9-9-9-9-9-9-9--|-4-4-4-4-4-4-4-4--|-6-6-6-6-6-6-6-6--|-9-9-9-9-9-9-9-9--|
A|-9-9-9-9-9-9-9-9--|-4-4-4-4-4-4-4-4--|-6-6-6-6-6-6-6-6--|-7-7-7-7-7-7-7-7--|
E|-7-7-7-7-7-7-7-7--|-2-2-2-2-2-2-2-2--|-4-4-4-4-4-4-4-4--|------------------|
   ^   ^   ^   ^      ^   ^   ^   ^      ^   ^   ^   ^      ^   ^   ^   ^

=VERSE 1

  LEAD
e|------------------|------------------|------------------|------------------|              
B|----12/14--12-----|------------------|------------------|------------------|
G|----11/13--11-----|------------------|------------------|------------------|  x1    
D|------------------|------------------|------------------|------------------|
A|------------------|------------------|------------------|------------------|
E|------------------|------------------|------------------|------------------|
  RHYTHM (same as intro)
e|------------------|------------------|------------------|------------------|
B|------------------|------------------|------------------|------------------|
G|-8-8-8-8-8-8-8-8--|-3-3-3-3-3-3-3-3--|-4-4-4-4-4-4-4-4--|-9-9-9-9-9-9-9-9--|  x2
D|-9-9-9-9-9-9-9-9--|-4-4-4-4-4-4-4-4--|-6-6-6-6-6-6-6-6--|-9-9-9-9-9-9-9-9--|
A|-9-9-9-9-9-9-9-9--|-4-4-4-4-4-4-4-4--|-6-6-6-6-6-6-6-6--|-7-7-7-7-7-7-7-7--|
E|-7-7-7-7-7-7-7-7--|-2-2-2-2-2-2-2-2--|-4-4-4-4-4-4-4-4--|------------------|
   ^   ^   ^   ^      ^   ^   ^   ^      ^   ^   ^   ^      ^   ^   ^   ^


1. Well you done done me and you bet I felt it
    I tried to be chill but you’re so hot that I melted
    I fell right through the cracks
    And now I’m trying to get back

2. Before the cool done run out
    I’ll be giving it my bestest
    Nothing’s going to stop me but divine intervention
    I reckon it’s again my turn to win some or learn some

=CHORUS

  LEAD
e|------------------|------------------|------------------|------------------|
B|------------------|------------------|------------------|------------------|
G|------------------|------------------|------------------|------------------|
D|------------------|------------------|------------------|------------------|
A|------------------|------------------|------------------|------------------|
E|------------------|------------------|------------------|------------------|
  RHYTHM (same as verse)
e|------------------|------------------|------------------|------------------|
B|------------------|------------------|------------------|------------------|
G|-8-8-8-8-8-8-8-8--|-3-3-3-3-3-3-3-3--|-4-4-4-4-4-4-4-4--|-9-9-9-9-9-9-9-9--|
D|-9-9-9-9-9-9-9-9--|-4-4-4-4-4-4-4-4--|-6-6-6-6-6-6-6-6--|-9-9-9-9-9-9-9-9--|
A|-9-9-9-9-9-9-9-9--|-4-4-4-4-4-4-4-4--|-6-6-6-6-6-6-6-6--|-7-7-7-7-7-7-7-7--|
E|-7-7-7-7-7-7-7-7--|-2-2-2-2-2-2-2-2--|-4-4-4-4-4-4-4-4--|------------------|
   ^   ^   ^   ^      ^   ^   ^   ^      ^   ^   ^   ^      ^   ^   ^   ^

    I won’t hesitate no more, no more
    It cannot wait, I’m yours

LEAD (same as intro)
e|------------------|------------------|------------------|------------------|
B|----12/14--12-----|----12/14--7------|----7/9--4--------|----4x-4h5--------|
G|----11/13--11-----|----11/13--6------|----6/8--4--------|----4x-4----------|
D|------------------|------------------|------------------|------------------|
A|------------------|------------------|------------------|------------------|
E|------------------|------------------|------------------|------------------|
  RHYTHM - (same as intro/verse)
e|------------------|------------------|------------------|------------------|
B|------------------|------------------|------------------|------------------|
G|-8-8-8-8-8-8-8-8--|-3-3-3-3-3-3-3-3--|-4-4-4-4-4-4-4-4--|-9-9-9-9-9-9-9-9--|
D|-9-9-9-9-9-9-9-9--|-4-4-4-4-4-4-4-4--|-6-6-6-6-6-6-6-6--|-9-9-9-9-9-9-9-9--|
A|-9-9-9-9-9-9-9-9--|-4-4-4-4-4-4-4-4--|-6-6-6-6-6-6-6-6--|-7-7-7-7-7-7-7-7--|
E|-7-7-7-7-7-7-7-7--|-2-2-2-2-2-2-2-2--|-4-4-4-4-4-4-4-4--|------------------|
   ^   ^   ^   ^      ^   ^   ^   ^      ^   ^   ^   ^      ^   ^   ^   ^

=VERSE 2

- Drums come in

  LEAD
e|------------------|------------------|------------------|------------------|              
B|----12/14--12-----|------------------|------------------|------------------|
G|----11/13--11-----|------------------|------------------|------------------|  
D|------------------|------------------|------------------|------------------|
A|------------------|------------------|------------------|------------------|
E|------------------|------------------|------------------|------------------|
  RHYTHM (the usual)
e|------------------|------------------|------------------|------------------|
B|------------------|------------------|------------------|------------------|
G|-8-8-8-8-8-8-8-8--|-3-3-3-3-3-3-3-3--|-4-4-4-4-4-4-4-4--|-9-9-9-9-9-9-9-9--|
D|-9-9-9-9-9-9-9-9--|-4-4-4-4-4-4-4-4--|-6-6-6-6-6-6-6-6--|-9-9-9-9-9-9-9-9--|
A|-9-9-9-9-9-9-9-9--|-4-4-4-4-4-4-4-4--|-6-6-6-6-6-6-6-6--|-7-7-7-7-7-7-7-7--|
E|-7-7-7-7-7-7-7-7--|-2-2-2-2-2-2-2-2--|-4-4-4-4-4-4-4-4--|------------------|
   ^   ^   ^   ^      ^   ^   ^   ^      ^   ^   ^   ^      ^   ^   ^   ^

    Well open up your mind and see like me
    Open up your plans and damn you’re free
    Look into your heart and you’ll find love love love love

  LEAD
e|------------------|------------------|------------------|------------------|
B|------------------|------------------|------------------|------------------|
G|------------------|------------------|------------------|------------------|
D|------------------|------------------|------------------|------------------|
A|------------------|------------------|------------------|------------------|
E|------------------|------------------|------------------|------------------|
  RHYTHM (added chord - Em)
e|------------------|------------------|------------------|------------------|-------|
B|------------------|------------------|------------------|------------------|---8---|
G|-8-8-8-8-8-8-8-8--|-3-3-3-3-3-3-3-3--|-4-4-4-4-4-4-4-4--|-9-9-9-9-9-9-9-9--|---9---|
D|-9-9-9-9-9-9-9-9--|-4-4-4-4-4-4-4-4--|-6-6-6-6-6-6-6-6--|-9-9-9-9-9-9-9-9--|---9---|
A|-9-9-9-9-9-9-9-9--|-4-4-4-4-4-4-4-4--|-6-6-6-6-6-6-6-6--|-7-7-7-7-7-7-7-7--|---7---|
E|-7-7-7-7-7-7-7-7--|-2-2-2-2-2-2-2-2--|-4-4-4-4-4-4-4-4--|------------------|-------|
   ^   ^   ^   ^      ^   ^   ^   ^      ^   ^   ^   ^      ^   ^   ^   ^

    Listen to the music of the moment people dance and sing
    We’re just one big family
    And It’s our God-forsaken right to be loved love loved love loved

=CHORUS 2 (repeat chorus)

=BRIDGE (not sure about this) [remember this is the 2008 version]

LEAD (mostly keyboard but I did my best to convert)

(12’s, 11’s and 10’s)
e|------------------|------------------|------------------|------------------|
B|12121212-11111111-|9-9-9-9--7-7-7-7--|-5-5-5-5-5-5-5-5--|-12-12-12-12-12\0-|
G|11111111-10101010-|8-8-8-8--6-6-6-6--|-4-4-4-4-4-4-4-4--|-11-11-11-11-11\0-|  x2
D|------------------|------------------|------------------|------------------|
A|------------------|------------------|------------------|------------------|
E|------------------|------------------|------------------|------------------|
  RHYTHM                                                   (10’s)
e|------------------|------------------|------------------|------------------|
B|------------------|------------------|------------------|------------------|
G|------------------|------------------|-9-9-9-9-9-9-9-9--|-1010101010--9\0--|  x2
D|-9-9-9-9-8-8-8-8--|-6-6-6-6-4-4-4-4--|-9-9-9-9-9-9-9-9--|-1010101010--9\0--|
A|-9-9-9-9-8-8-8-8--|-6-6-6-6-4-4-4-4--|-7-7-7-7-7-7-7-7--|-8-8-8-8-8---7\0--|
E|-7-7-7-7-6-6-6-6--|-4-4-4-4-2-2-2-2--|------------------|------------------|
   ^   ^   ^   ^      ^   ^   ^   ^      ^   ^   ^   ^

    *scat*

=VERSE 3

  LEAD
e|------------------|------------------|------------------|------------------|
B|----12/14--12-----|----12/14--7------|----7/9--4--------|----4x-4h5--------|
G|----11/13--11-----|----11/13--6------|----6/8--4--------|----4x-4----------|
D|------------------|------------------|------------------|------------------|
A|------------------|------------------|------------------|------------------|
E|------------------|------------------|------------------|------------------|
  RHYTHM
e|------------------|------------------|------------------|------------------|
B|------------------|------------------|------------------|------------------|
G|-8-8-8-8-8-8-8-8--|-3-3-3-3-3-3-3-3--|-4-4-4-4-4-4-4-4--|-9-9-9-9-9-9-9-9--|
D|-9-9-9-9-9-9-9-9--|-4-4-4-4-4-4-4-4--|-6-6-6-6-6-6-6-6--|-9-9-9-9-9-9-9-9--|
A|-9-9-9-9-9-9-9-9--|-4-4-4-4-4-4-4-4--|-6-6-6-6-6-6-6-6--|-7-7-7-7-7-7-7-7--|
E|-7-7-7-7-7-7-7-7--|-2-2-2-2-2-2-2-2--|-4-4-4-4-4-4-4-4--|------------------|
   ^   ^   ^   ^      ^   ^   ^   ^      ^   ^   ^   ^      ^   ^   ^   ^

    I’ve been spending way too long checking my tongue in the mirror
    And bending over backwards just to try to see it clearer
    But my breath fogged up the glass
    And so I drew a new face and laughed

  LEAD
e|------------------|------------------|------------------|------------------|              
B|----12/14--12-----|------------------|------------------|------------------|
G|----11/13--11-----|------------------|------------------|------------------|      
D|------------------|------------------|------------------|------------------|
A|------------------|------------------|------------------|------------------|
E|------------------|------------------|------------------|------------------|
  RHYTHM (same as intro)
e|------------------|------------------|------------------|------------------|
B|------------------|------------------|------------------|------------------|
G|-8-8-8-8-8-8-8-8--|-3-3-3-3-3-3-3-3--|-4-4-4-4-4-4-4-4--|-9-9-9-9-9-9-9-9--|
D|-9-9-9-9-9-9-9-9--|-4-4-4-4-4-4-4-4--|-6-6-6-6-6-6-6-6--|-9-9-9-9-9-9-9-9--|
A|-9-9-9-9-9-9-9-9--|-4-4-4-4-4-4-4-4--|-6-6-6-6-6-6-6-6--|-7-7-7-7-7-7-7-7--|
E|-7-7-7-7-7-7-7-7--|-2-2-2-2-2-2-2-2--|-4-4-4-4-4-4-4-4--|------------------|
   ^   ^   ^   ^      ^   ^   ^   ^      ^   ^   ^   ^      ^   ^   ^   ^

  I guess what I’ma saying is there ain’t no better reason
  To rid yourself of vanities and just go with the seasons
  It’s what we aim to do
  Our name is our virtue

=CHORUS 3 (very feint)

RHYTHM
e|------------------|------------------|------------------|------------------|              
B|------------------|------------------|------------------|------------------|
G|------------------|------------------|------------------|------------------|      
D|--------9---------|------------------|------------------|------------------|
A|--------9---------|--------4---------|---------6--------|---------2--------|
E|--------7---------|--------2---------|---------4--------|---------0--------|

    I won’t hesitate no more, no more
    It cannot wait I’m yours
   


=This is played until the song ends

  The usual....
e|------------------|------------------|------------------|------------------|
B|------------------|------------------|------------------|------------------|
G|-8-8-8-8-8-8-8-8--|-3-3-3-3-3-3-3-3--|-4-4-4-4-4-4-4-4--|-9-9-9-9-9-9-9-9--|
D|-9-9-9-9-9-9-9-9--|-4-4-4-4-4-4-4-4--|-6-6-6-6-6-6-6-6--|-9-9-9-9-9-9-9-9--|
A|-9-9-9-9-9-9-9-9--|-4-4-4-4-4-4-4-4--|-6-6-6-6-6-6-6-6--|-7-7-7-7-7-7-7-7--|
E|-7-7-7-7-7-7-7-7--|-2-2-2-2-2-2-2-2--|-4-4-4-4-4-4-4-4--|------------------|
   ^   ^   ^   ^      ^   ^   ^   ^      ^   ^   ^   ^      ^   ^   ^   ^


=End

1.本站遵循行业规范,任何转载的曲谱和教程都会明确标注作者和来源;2.本站的原创曲谱,请转载时务必注明文章作者和来源;3.作者投稿可能会经我们编辑修改或补充。