Do You Remember

歌曲名:Do You Remember
歌手/乐队:Jack Johnson

Do You Remember By: Jack Johnson

This is 100% correct. Standard Tuning

Intro\Verse
e-----------5--------------5------------3-------------5--5--------|
b-----------7--------------5------------3-------------7--5--------|
g-----------7------7-------6------------4-------------7--6--------|
d-----------7--7h9---9-7---7------------5-------------7--7--------|
a----5-7--5-5--------------7--/9-7-5----5-------5-7-5-5--7--------|
E-/7---------------------5-5----------3-3---5/7----------5--------|

e-----------5--------------5------------3----------------5--5--------|
b-----------7--------------5------------3----------------7--5--------|
g-----------7------7-------6------------4----------------7--6--------|
d-----------7--7h9---9-7---7------------5----------------7--7--------|
a----5-7--5-5--------------7--/9-7-5----5-5/7--5/7-5---5-5--7--------|
E-/7---------------------5-5----------3-3------------7------5--------|

e-----------5--------------5------------3-3------5--5--------|
b-----------7--------------5------------3-3------7--5--------|
g-----------7------7-------6------------4-4------7--6--------| 3 times
d-----------7--7h9---9-7---7------------5-5------7--7--------|
a----5-7--5-5--------------7--/9-7-5----5-5----5-5--7--------|
E-/7---------------------5-5----------3-3-3---------5--------|

CHORUS Play the E minor quickly and then directly to the verse
e---5-5--------------------------5---3---2---7--|
b---5-5-------12----12----8-8----5---3---2---8--|
g---6-6-------12----12----9-9----6---4---2---9--|
d---7-7-------12----12----9-9----7---5---4---9--|
a---7-7-----10----9-----7-7-7----7---5---4---7--|
E-5-5-5------------------------5-5-3-3-2-2------|

-Verse-
e----------5--------------5------------3-3------5--5--------|
b----------7--------------5------------3-3------7--5--------|
g----------7------7-------6------------4-4------7--6--------| 4 times
d----------7--7h9---9-7---7------------5-5------7--7--------|
a----5-7-5-5--------------7--/9-7-5----5-5----5-5--7--------|
E-/7--------------------5-5----------3-3-3---------5--------|

-CHORUS-

OUTRO
e------------------|
b------------------|
g------------------|
d------------------|
a-------5-7-7/9-5--|
E--5/7-------------|

Do you remember when we first met
I sure do
It was some time
In early September
You were lazy about it
You made me wait around
I was so crazy about you
I didn’t mind
So I was late for class
I locked my bike to yours
It wasn’t hard to find
You painted flowers oh
Guess that I was afraid
That if you rode away
You might not roll back
My direction real soon
Well I was crazy about you then
And now the craziest thing of all
Over 10 years have gone by
And your still mine
Locked in time
Lets rewind

Do you remember
When we first moved in together
The piano took up the living room
You’d play me boogie woogie
I played you love songs
You’d say we’re playing house
Now you still say we are
We build our get away
Up in a tree we found
We felt so far away
Though we were still in town
I remember watching
That old tree burn down
I took a picture that
I don’t like to look at

Well all these times
They come and go
Alone don’t seem so long
Over 10 years have gone by
We cant rewind
We’re locked in time
But your still mine

Do you remember?

1.本站遵循行业规范,任何转载的曲谱和教程都会明确标注作者和来源;2.本站的原创曲谱,请转载时务必注明文章作者和来源;3.作者投稿可能会经我们编辑修改或补充。