按歌手字母索引 0-9 A B C D E F G H  I J K L M N O P Q R S T U V W X Y Z
Local Hero
吉他吧 www.jitaba.cn 点击:
当前位置: 吉他吧-吉他曲谱-D-
吉它曲谱 Local Hero  歌手/乐队:Dire Straits
                        

|---|-------------------|---------|-5----------|---5-----5-4-----5---|
|---|---7-----7-5-----7-|-----5-7-|----------8-|--7----7-------7-----|
|---|--7----7-------7---|---7-----|-7----7-----|-6---6-------6-----9-|
|-7-|-7---7-------7-----|-7-------|----7---7---|---------------------|
|---|-------------------|---------|------------|---------------------|
|---|-------------------|---------|------------|---------------------|


|-----4-5-|-----4-5-7-5-----|-------------------|---------|-------------------|
|---7-----|---7---------9-7-|-8-----8-7-----8---|-----7-8-|-----7-8-10p8-7-5--|
|-6-------|-6---------------|-----9-------9-----|---9-----|---9---------------|
|---------|-----------------|---9-------9-----9-|-9-------|-9-----------------|
|---------|-----------------|-------------------|---------|-------------------|
|---------|-----------------|-------------------|---------|-------------------|


|-------------------|-------|--------------------------|-------------------|
|-3/7-----7-5-----7-|-----7-|---7-----7-5-7-8-10p8-7-5-|-8-----8-7-----8---|
|-------7-------7---|---7---|--7----7------------------|-----9-------9-----|
|-----7-------7-----|-7-----|-7---7--------------------|---9-------9-----9-|
|-------------------|-------|--------------------------|-------------------|
|-------------------|-------|--------------------------|-------------------|


|------------------------|--------------------------------------|-----------------------|
|--7-8-5/7-----7-5-----7-|-------7---7-----7-5-----7-8-10p8-7-5-|-3-------3-2-------3---|
|-9----------7-------7---|-5/7------7----7-------7--------------|-------4---------4-----|
|9---------7-------7-----|-----7---7---7-------7----------------|-----4---------4-------|
|------------------------|--------------------------------------|---2---------2---------|
|------------------------|--------------------------------------|-----------------------|


|----------------------------|----------------------|-----------------------------|
|---3-3-------3-2-3------3-2-|-3-------3-2-------3--|---2-3-------3-2-------2h3p2-|
|-4---------4----------4-----|-------4---------4----|-4---------4---------4-------|
|-4-------2----------2-------|-----4---------4------|---------4---------4---------|
|----------------------------|---2---------2--------|-------2---------2-----------|
|-------2-----------2--------|----------------------|-----------------------------|


1:41 mins

|-------------------|-----------------------------|-----------------------|
|-------------------|---------12-14-12h14p12------|---------10--------(10)|
|-2/11-11-11/14-14--|-7/11-14---------------14-11-|-11p9h11----9-9-7-9----|
|-------------------|-----------------------------|-----------------------|
|-------------------|-----------------------------|-----------------------|
|-------------------|-----------------------------|-----------------------|


|---------------------|----------------------|------------10-9-7-7h9p7-------|
|-------7-------------|----------------------|-------7-10--------------10-7--|
|---7-9---7-----------|-6-7-9-11-11-11/14-14-|---7-9-------------------------|
|-7---------7-9-9p7h9-|----------------------|-7-----------------------------|
|---------------------|----------------------|-7-----------------------------|
|---------------------|----------------------|-------------------------------|


|---------------------|-------------------------|
|--------7-10---------|-------7---------7-------|
|-9^--9^------9-9-7-9-|---7-9---7-----7---9-7-7-|
|---------------------|-7---------7-9-----------|
|---------------------|-------------------------|
|---------------------|-------------------------|


|----------10-12-10-9---------7---------|--------------------------|
|-----7-10------------10-8-10---10p8h10-|-8p6h8-10-8-7---------7---|
|-7h9-----------------------------------|--------------7-----7---9-|
|---------------------------------------|----------------7-9-------|
|---------------------------------------|--------------------------|
|---------------------------------------|--------------------------|


|-14-12-10-9---------------------------------------|
|------------10-8h10p8-7-10---7-10-7-8-7-----------|
|---------------------------7----------------------|
|----------------------------------------7-9-9-7-7-|
|--------------------------------------------------|
|--------------------------------------------------|


2:48
|-----------------|------7-9-7h9p7------|---------------------------|
|---7-----7-10-10-|-7-10-----------10-7-|-------7------------7-8----|
|---7---7---------|---------------------|---7-9---7^-------------9--|
|-7---7-----------|---------------------|-7----------7-9-9-7--------|
|-----------------|---------------------|---------------------------|
|-----------------|---------------------|---------------------------|


|---------------|------------------------|-14-12--------------------------|
|---8-7-7-8-----|-7-8--------------------|-------15-14-12-14-12-10h12p10--|
|-----------9---|-----9-7-9-7-9-11-14-14-|--------------------------------|
|-7-----------9-|------------------------|--------------------------------|
|---------------|------------------------|--------------------------------|
|---------------|------------------------|--------------------------------|


|---------------------------|----------------------------|
|-7/12-12-------------------|-------7-7^---------7-------|
|-7/11-11-11-11-11-9-7-11-9-|---7-9------7-----7---9-7-7-|
|---------------------------|-7------------7-9-----------|
|---------------------------|----------------------------|
|---------------------------|----------------------------|


|---------------|------------------|---------------|
|-------7-------|---------------10-|---------------|
|---7-9---7p6-4-|-7h9-11-9h11p9----|--7---------7--|
|-7-------------|------------------|--7-------7----|
|---------------|------------------|----5h7/9------|
|---------------|------------------|---------------|

GTP格式
:请确保您的机器安装了Guitar pro 5.0版,以及解压软件WinRAR。
上一篇:Thank You     下一篇:他不准我哭
相关曲目
  • Sultans Of Swing
  • 吉他吧 Www.Jitaba.Cn © 2009-2011 吉他谱吉他教程、专业吉他学习网站