按歌手字母索引 0-9 A B C D E F G H  I J K L M N O P Q R S T U V W X Y Z
Fill Me In
吉他吧 www.jitaba.cn 点击:
当前位置: 吉他吧-吉他曲谱-C-
吉他谱子 Fill Me In    歌手/乐队:Craig David

Standard tuning:EBGDAE
Capo: 3rd fret
    
       Am            Em7 Am/F
E------------3--------------------0-
B---------------0h1--0h1h0-----3--1-
G------2--------------------0--0--2-
D---------2-------------------------
A------0--------0-------------------
E--------------------0---------0--1-

Repeat with some variation of random hammering
This portion of the song is picked, and used
during verses.
*Holding original chord shapes while picking might
make it easier

After some picking, strumming is then used for
the chorus and few other selected parts of the
song:
    Am       Em7            Am/F
E------0--0-----------------0---
B------1--1-----0--1--0--3--1---
G------2--0-----0--0--0--0--2---
D------2--2-----0--0--0--0--2---
A---0--0--------2--2--2--2--X---
E------------0--------------1---

There are some variations in the strumming as well,
listen for them.

*h= hammer

Chords:

   Am    Em7   Am/F
E  -0-   -0-   -0-
B  -1-   -0-   -1-
G  -2-   -0-   -2-
D  -2-   -0-   -2-
A  -0-   -2-   -X-
E  ---   -0-   -1-

GTP格式
:请确保您的机器安装了Guitar pro 5.0版,以及解压软件WinRAR。
上一篇:白狐     下一篇:陪我看日出
相关曲目
吉他吧 Www.Jitaba.Cn © 2009-2011 吉他谱吉他教程、专业吉他学习网站