shes gone

歌手:网络 来源:文本 2007-09-01 曲谱热度:°

其他版本

    吉他谱歌曲名:shes gone
    歌手/乐队:Black Sabbath


    Tune up to C (444Hz),Andante, 80 beats/min., 4/4 count

    NOTE:  Lyrics may not match written music or may be incorrect.
           Multiple guitar parts may not align due to space constraints.

    {Keyboard Opening}

    arpegio
       E
    ------0-------0---------0-------0----------0-------0---------0-----0-----0-----*0-------
    -----*-0-----*-0-------*-0-----*-0--------*-0-----*-0-------*-0---*-0---*-0---*--0------
    ----*---*---*---*-----*---*---*---*------*---*---*---*-----0---0-*---0-*---0-*----0-----
    -2-*-----2-*-----1/2-*-----2-*------1/2-*-----2-*-----2-0-*-----2-----2-----2------2----
    --2-------2---------2-------2----------2-------2---------2------------------------------
    ----------------------------------------------------------------------------------------
    {vp in}
    (Guitar 1 acoustic 6 string)

    -----0-----0-------0------------0----------0--------------0----
    ----*-0---*-0-----*-0----------*-*--------*-*------------*-----
    -8-*---8-*---*-8-*---8----11--*---*--11--*---11-----11--*------
    --9-----9-----9-9-----9/12--12-----12--12------12-12--12-------
    ---------------------------------------------------------------
    ---------------------------------------------------------------

    ---------0-------0----------0----------
    --------*-0-----*-*--------*-0---------
    ---12--*---12--*---*--12--*---12--12---
    -14--14------14-----14--14------14-----
    ---------------------------------------
    ---------------------------------------

    ------0-----------0---------0-------0-----0----
    -----*-0---------*-0-------*-0-----*-0---*-0---
    ----8---*-------8---*-----8---8---8---8-*------
    -8-9----10-9-8-9----10-8-9-----9-9-----9-------
    -----------------------------------------------
    -----------------------------------------------

    -----0-----0------0------0------0------0------0------0-----
    ----*-0---*-0----*-0----*-0----*-0----*-0----*-0----*-0----
    -4-*---4-*----4-*----4-*----8-*----8-*----8-*----8-*-------
    --5-----5------5------5------9------9------9------9--------
    -----------------------------------------------------------
    -----------------------------------------------------------
    I’ve been a long, long time   a   waitin’   for   you

    -----0-----0------0------0------0------0------0------0-----
    ----*-0---*-0----*-0----*-0----*-0----*-0----*-0----*-0----
    -4-*---4-*----4-*----4-*----8-*----8-*----8-*----8-*-------
    --5-----5------5------5------9------9------9------9--------
    -----------------------------------------------------------
    -----------------------------------------------------------
    I didn’t want to see you go, oh no no.


    --------0-------0---------0--------0---------0-------0-------0---------0-------0----
    -------*-0-----*-0-------*-0------*-0-------*-0-----*-0-----*-0-------*-0-----*-0---
    -11--11----11-*-----11--*----11--*------9--*----9--*----9--*---*--9--*----9--*------
    ---12-------12--------12-------12-----11-11------11------11-----11-11------11-------
    ------------------------------------------------------------------------------------
    ------------------------------------------------------------------------------------
    And now it’s hurting so much               What can I do?

    ------0------0-------0------0------0------0---------
    -----*-0----*-0-----*-0----*-0----*-0----*-0--------
    -8--*---8--*-----6-*----8-*----8-*----8-*-----------
    --10-----10-------8------9------9------9------------
    ----------------------------------------------------
    ----------------------------------------------------
    I wanted you to be my wife.

    -----0-----0------0------0------0------0------0------0-----
    ----*-0---*-0----*-0----*-0----*-0----*-0----*-0----*-0----
    -4-*---4-*----4-*----4-*----8-*----8-*----8-*----8-*-------
    --5-----5------5------5------9------9------9------9--------
    -----------------------------------------------------------
    -----------------------------------------------------------
    The days are passing slowly, since you’ve gone.

    -----0-----0------0------0------0------0------0------0-----
    ----*-0---*-0----*-0----*-0----*-0----*-0----*-0----*-0----
    -4-*---4-*----4-*----4-*----8-*----8-*----8-*----8-*-------
    --5-----5------5------5------9------9------9------9--------
    -----------------------------------------------------------
    -----------------------------------------------------------
    Your memories are all I have, yes I have.


    --------0-------0---------0--------0---------0-------0-------0---------0-------0----
    -------*-0-----*-0-------*-0------*-0-------*-0-----*-0-----*-0-------*-0-----*-0---
    -11--11----11-*-----11--*----11--*------9--*----9--*----9--*---*--9--*----9--*------
    ---12-------12--------12-------12-----11-11------11------11-----11-11------11-------
    ------------------------------------------------------------------------------------
    ------------------------------------------------------------------------------------
    I sit here waitin’ but, you never show

    ------0------0-------0------0------0------0---------
    -----*-0----*-0-----*-0----*-0----*-0----*-0--------
    -8--*---8--*-----6-*----8-*----8-*----8-*-----------
    --10-----10-------8------9------9------9------------
    ----------------------------------------------------
    ----------------------------------------------------
    Without you I can’t carry on, ohh my baby.

    ------------------------------------------------------------------------
    ---------------------8-------10---/--12~~~~~----------------------------
    --------7-----9---------------------------------------------------------
    --9---------------------------------------------------------------------
    ------------------------------------------------------------------------
    ------------------------------------------------------------------------
    (Keyboard transcribed for Guitar {Guitar 1})

    -------0----------------0----------------0----------------0--------------
    ------*-0--------------*-0--------------*-0--------------*-0-------------
    -----*---*------------*---*------------*---*------------*---*------------
    ----2-----2--2--2----2-----2--2--2----2-----2--2--2----2-----2--2--2-----
    ---2--------2--2-*--2--------2--2-*--2--------2--2-*--2--------2--2-*----
    --0---------------0-----------------0----------------0-------------------
    (Guitar 2)

    ----------------------------------------------------
    ----------------------------------------------------
    ---------------------------14--------16~~~----------
    ---------14----16----17-----------------------------
    -14-------------------------------------------------
    ----------------------------------------------------
    (Guitar 1)

    -------0----------------0--------------2-----2------
    ------*-0--------------*-0------------3-3---3-3-----
    -----*---*------------*---*----------2---*-2---*----
    ----2-----2--2--2----2-----2--2--2--0-----0---------
    ---2--------2--2-*--2--------2--2-------------------
    --0---------------0---------------------------------
    (Guitar 2)

    -----------------------------------------------------------------------------
    ------------13--15---17---15---13------------------------16~~--17~~----------
    -15-17~~~~~---------------------------14~~~--16~~---18~~~--------------------
    -----------------------------------14----------------------------------------
    -----------------------------------------------------------------------------
    -----------------------------------------------------------------------------
    (Guitar 1)

    ----5--------5------5------5-------7------7------7-------------
    ---5-5------5-5----5-5----5-5-----7-7----7-7----7-7------------
    --6---6----6---5--6---6--7---7---9---9--8---8--8---8-----------
    -7------7-6------5------7-------9------9------9----------------
    ---------------------------------------------------------------
    ---------------------------------------------------------------
    (Guitar 2)

    -----0-----0------0------0------0------0------0------0-----
    ----*-0---*-0----*-0----*-0----*-0----*-0----*-0----*-0----
    -4-*---4-*----4-*----4-*----8-*----8-*----8-*----8-*-------
    --5-----5------5------5------9------9------9------9--------
    -----------------------------------------------------------
    -----------------------------------------------------------
    You said you’d always love me, all of my life.

    -----0-----0------0------0------0------0------0------0-----
    ----*-0---*-0----*-0----*-0----*-0----*-0----*-0----*-0----
    -4-*---4-*----4-*----4-*----8-*----8-*----8-*----8-*-------
    --5-----5------5------5------9------9------9------9--------
    -----------------------------------------------------------
    -----------------------------------------------------------
    And then you said your last goodbye, yeah goodbye.


    --------0-------0---------0--------0---------0-------0-------0---------0-------0----
    -------*-0-----*-0-------*-0------*-0-------*-0-----*-0-----*-0-------*-0-----*-0---
    -11--11----11-*-----11--*----11--*------9--*----9--*----9--*---*--9--*----9--*------
    ---12-------12--------12-------12-----11-11------11------11-----11-11------11-------
    ------------------------------------------------------------------------------------
    ------------------------------------------------------------------------------------
    Why the sudden changes? Why all all of the lies?

    ------0------0-------0------0------0------0---------
    -----*-0----*-0-----*-0----*-0----*-0----*-0--------
    -8--*---8--*-----6-*----8-*----8-*----8-*-----------
    --10-----10-------8------9------9------9------------
    ----------------------------------------------------
    ----------------------------------------------------
    I should have seen it in your eyes.

    -----0-----0------0------0------0------0------0------0-----
    ----*-0---*-0----*-0----*-0----*-0----*-0----*-0----*-0----
    -4-*---4-*----4-*----4-*----8-*----8-*----8-*----8-*-------
    --5-----5------5------5------9------9------9------9--------
    -----------------------------------------------------------
    -----------------------------------------------------------
    The endless hours of heart ach, a waitin’ for you.

    -----0-----0------0------0------0------0------0------0-----
    ----*-0---*-0----*-0----*-0----*-0----*-0----*-0----*-0----
    -4-*---4-*----4-*----4-*----8-*----8-*----8-*----8-*-------
    --5-----5------5------5------9------9------9------9--------
    -----------------------------------------------------------
    -----------------------------------------------------------
    My summer love has turned to rain, ohh the pain.

    --------0-------0---------0--------0---------0-------0-------0---------0-------0----
    -------*-0-----*-0-------*-0------*-0-------*-0-----*-0-----*-0-------*-0-----*-0---
    -11--11----11-*-----11--*----11--*------9--*----9--*----9--*---*--9--*----9--*------
    ---12-------12--------12-------12-----11-11------11------11-----11-11------11-------
    ------------------------------------------------------------------------------------
    ------------------------------------------------------------------------------------
    The silent emptiness of one sided love,

    ------0------0-------0------0------0------0---------
    -----*-0----*-0-----*-0----*-0----*-0----*-0--------
    -8--*---8--*-----6-*----8-*----8-*----8-*-----------
    --10-----10-------8------9------9------9------------
    ----------------------------------------------------
    ----------------------------------------------------
    My life means nothing now you’ve gone, ohh my baby.

    ------------------------------------------------------------------------
    ---------------------8-------10---/--12~~~~~----------------------------
    --------7-----9---------------------------------------------------------
    --9---------------------------------------------------------------------
    ------------------------------------------------------------------------
    ------------------------------------------------------------------------
    (Keyboard transcribed for Guitar {Guitar 1})

    -------0----------------0----------------0----------------0--------------
    ------*-0--------------*-0--------------*-0--------------*-0-------------
    -----*---*------------*---*------------*---*------------*---*------------
    ----2-----2--2--2----2-----2--2--2----2-----2--2--2----2-----2--2--2-----
    ---2--------2--2-*--2--------2--2-*--2--------2--2-*--2--------2--2-*----
    --0---------------0-----------------0----------------0-------------------
    (Guitar 2)

    ----------------------------------------------------
    ----------------------------------------------------
    ---------------------------14--------16~~~----------
    ---------14----16----17-----------------------------
    -14-------------------------------------------------
    ----------------------------------------------------
    (Guitar 1)

    -------0----------------0--------------2-----2------
    ------*-0--------------*-0------------3-3---3-3-----
    -----*---*------------*---*----------2---*-2---*----
    ----2-----2--2--2----2-----2--2--2--0-----0---------
    ---2--------2--2-*--2--------2--2-------------------
    --0---------------0---------------------------------
    (Guitar 2)

    -----------------------------------------------------------------------------
    ------------13--15---17---15---13------------------------16~~--17~~----------
    -15-17~~~~~---------------------------14~~~--16~~---18~~~--------------------
    -----------------------------------14----------------------------------------
    -----------------------------------------------------------------------------
    -----------------------------------------------------------------------------
    (Guitar 1)

    ----5--------5------5------5-------7------7------7-------------
    ---5-5------5-5----5-5----5-5-----7-7----7-7----7-7------------
    --6---6----6---5--6---6--7---7---9---9--8---8--8---8-----------
    -7------7-6------5------7-------9------9------9----------------
    ---------------------------------------------------------------
    ---------------------------------------------------------------
    (Guitar 2)

    1.本站遵循行业规范,任何转载的曲谱和教程都会明确标注作者和来源;2.本站的原创曲谱,请转载时务必注明文章作者和来源,不尊重原创的行为我们将追究责任;3.作者投稿可能会经我们编辑修改或补充。

    自动滚屏
    全屏阅谱
    关闭
    自动滚屏